ISO-10303-21;
HEADER;
FILE_DESCRIPTION (( 'STEP AP203' ),
    '1' );
FILE_NAME ('Q-OZHWP-R2-12.7-532-M.STEP',
    '2020-12-22T09:14:23',
    ( '' ),
    ( '' ),
    'SwSTEP 2.0',
    'SolidWorks 2020',
    '' );
FILE_SCHEMA (( 'CONFIG_CONTROL_DESIGN' ));
ENDSEC;

DATA;
#1 = LINE ( 'NONE', #205, #112 ) ;
#2 = DIRECTION ( 'NONE',  ( -0.000000000000000000, 0.000000000000000000, 1.000000000000000000 ) ) ;
#3 = DIRECTION ( 'NONE',  ( 0.000000000000000000, 0.000000000000000000, 1.000000000000000000 ) ) ;
#4 = CC_DESIGN_PERSON_AND_ORGANIZATION_ASSIGNMENT ( #142, #140, ( #170 ) ) ;
#5 = DIRECTION ( 'NONE',  ( -1.000000000000000000, 0.000000000000000000, -0.000000000000000000 ) ) ;
#6 = CIRCLE ( 'NONE', #252, 6.349999999999999645 ) ;
#7 =( LENGTH_UNIT ( ) NAMED_UNIT ( * ) SI_UNIT ( .MILLI., .METRE. ) );
#8 = ADVANCED_FACE ( 'NONE', ( #201 ), #306, .F. ) ;
#9 = LOCAL_TIME ( 17, 14, 23.00000000000000000, #195 ) ;
#10 = DIRECTION ( 'NONE',  ( 0.000000000000000000, 0.000000000000000000, -1.000000000000000000 ) ) ;
#11 = PERSON_AND_ORGANIZATION ( #200, #308 ) ;
#12 =( NAMED_UNIT ( * ) PLANE_ANGLE_UNIT ( ) SI_UNIT ( $, .RADIAN. ) );
#13 = DATE_AND_TIME ( #40, #74 ) ;
#14 = APPROVAL ( #18, 'UNSPECIFIED' ) ;
#15 = CARTESIAN_POINT ( 'NONE',  ( 3.000000000000000000, 12.69999999999999929, 0.000000000000000000 ) ) ;
#16 = DATE_AND_TIME ( #295, #292 ) ;
#17 = ORIENTED_EDGE ( 'NONE', *, *, #111, .F. ) ;
#18 = APPROVAL_STATUS ( 'not_yet_approved' ) ;
#19 = EDGE_CURVE ( 'NONE', #123, #148, #158, .T. ) ;
#20 = ORIENTED_EDGE ( 'NONE', *, *, #234, .F. ) ;
#21 = ORIENTED_EDGE ( 'NONE', *, *, #309, .T. ) ;
#22 = DIRECTION ( 'NONE',  ( -1.000000000000000000, -0.000000000000000000, -0.000000000000000000 ) ) ;
#23 = APPROVAL ( #165, 'UNSPECIFIED' ) ;
#24 = CARTESIAN_POINT ( 'NONE',  ( -2.999999999999999556, 0.000000000000000000, 6.349999999999999645 ) ) ;
#25 = CIRCLE ( 'NONE', #211, 12.69999999999999929 ) ;
#26 = LINE ( 'NONE', #189, #125 ) ;
#27 = DIRECTION ( 'NONE',  ( 0.000000000000000000, 0.000000000000000000, 1.000000000000000000 ) ) ;
#28 = VECTOR ( 'NONE', #207, 1000.000000000000000 ) ;
#29 = CARTESIAN_POINT ( 'NONE',  ( -3.000000000000000000, 0.000000000000000000, 0.000000000000000000 ) ) ;
#30 = ADVANCED_FACE ( 'NONE', ( #260 ), #283, .F. ) ;
#31 = CARTESIAN_POINT ( 'NONE',  ( 1.500000000000000888, 0.000000000000000000, 0.000000000000000000 ) ) ;
#32 = AXIS2_PLACEMENT_3D ( 'NONE', #131, #5, #2 ) ;
#33 = CC_DESIGN_SECURITY_CLASSIFICATION ( #120, ( #170 ) ) ;
#34 = EDGE_CURVE ( 'NONE', #148, #333, #1, .T. ) ;
#35 = DIRECTION ( 'NONE',  ( 0.000000000000000000, 0.000000000000000000, 1.000000000000000000 ) ) ;
#36 = DIRECTION ( 'NONE',  ( 0.000000000000000000, 0.000000000000000000, 1.000000000000000000 ) ) ;
#37 = DIRECTION ( 'NONE',  ( 0.000000000000000000, 0.000000000000000000, -1.000000000000000000 ) ) ;
#38 = DATE_AND_TIME ( #72, #9 ) ;
#39 = CARTESIAN_POINT ( 'NONE',  ( -1.500000000000000444, 0.000000000000000000, 0.000000000000000000 ) ) ;
#40 = CALENDAR_DATE ( 2020, 22, 12 ) ;
#41 = DIRECTION ( 'NONE',  ( 1.000000000000000000, 0.000000000000000000, 0.000000000000000000 ) ) ;
#42 = DATE_AND_TIME ( #300, #268 ) ;
#43 = PRODUCT_DEFINITION_SHAPE ( 'NONE', 'NONE',  #87 ) ;
#44 = PERSON_AND_ORGANIZATION_ROLE ( 'design_owner' ) ;
#45 = AXIS2_PLACEMENT_3D ( 'NONE', #258, #261, #79 ) ;
#46 = CC_DESIGN_APPROVAL ( #172, ( #170 ) ) ;
#47 = ORIENTED_EDGE ( 'NONE', *, *, #116, .F. ) ;
#48 = EDGE_CURVE ( 'NONE', #256, #169, #238, .T. ) ;
#49 = VERTEX_POINT ( 'NONE', #182 ) ;
#50 = AXIS2_PLACEMENT_3D ( 'NONE', #204, #181, #127 ) ;
#51 = ORIENTED_EDGE ( 'NONE', *, *, #162, .T. ) ;
#52 = APPROVAL_PERSON_ORGANIZATION ( #69, #172, #217 ) ;
#53 = EDGE_LOOP ( 'NONE', ( #251, #100 ) ) ;
#54 = DIRECTION ( 'NONE',  ( 0.000000000000000000, 0.000000000000000000, 1.000000000000000000 ) ) ;
#55 = AXIS2_PLACEMENT_3D ( 'NONE', #262, #289, #27 ) ;
#56 = PLANE ( 'NONE',  #32 ) ;
#57 = AXIS2_PLACEMENT_3D ( 'NONE', #88, #107, #109 ) ;
#58 = DIRECTION ( 'NONE',  ( -1.000000000000000000, -0.000000000000000000, -0.000000000000000000 ) ) ;
#59 = EDGE_CURVE ( 'NONE', #333, #49, #6, .T. ) ;
#60 = CARTESIAN_POINT ( 'NONE',  ( 3.000000000000000888, 0.000000000000000000, 0.000000000000000000 ) ) ;
#61 = APPLICATION_CONTEXT ( 'configuration controlled 3d designs of mechanical parts and assemblies' ) ;
#62 = FACE_OUTER_BOUND ( 'NONE', #75, .T. ) ;
#63 = APPROVAL_PERSON_ORGANIZATION ( #11, #14, #144 ) ;
#64 = APPROVAL_DATE_TIME ( #210, #23 ) ;
#65 = AXIS2_PLACEMENT_3D ( 'NONE', #105, #150, #106 ) ;
#66 = DIRECTION ( 'NONE',  ( 0.000000000000000000, 0.000000000000000000, 1.000000000000000000 ) ) ;
#67 = PERSON_AND_ORGANIZATION_ROLE ( 'design_supplier' ) ;
#68 = DIRECTION ( 'NONE',  ( -1.000000000000000000, -0.000000000000000000, -0.000000000000000000 ) ) ;
#69 = PERSON_AND_ORGANIZATION ( #200, #308 ) ;
#70 = CARTESIAN_POINT ( 'NONE',  ( 3.000000000000000000, 1.555301434917138433E-15, -12.69999999999999929 ) ) ;
#71 = CC_DESIGN_DATE_AND_TIME_ASSIGNMENT ( #38, #297, ( #87 ) ) ;
#72 = CALENDAR_DATE ( 2020, 22, 12 ) ;
#73 = VERTEX_POINT ( 'NONE', #229 ) ;
#74 = LOCAL_TIME ( 17, 14, 23.00000000000000000, #216 ) ;
#75 = EDGE_LOOP ( 'NONE', ( #273, #98, #276, #307 ) ) ;
#76 = ORIENTED_EDGE ( 'NONE', *, *, #309, .F. ) ;
#77 = CARTESIAN_POINT ( 'NONE',  ( -1.614212418857619014, 0.000000000000000000, 0.000000000000000000 ) ) ;
#78 = CIRCLE ( 'NONE', #286, 6.349999999999999645 ) ;
#79 = DIRECTION ( 'NONE',  ( 0.000000000000000000, 0.000000000000000000, 1.000000000000000000 ) ) ;
#80 = FACE_OUTER_BOUND ( 'NONE', #53, .T. ) ;
#81 = EDGE_CURVE ( 'NONE', #145, #121, #103, .T. ) ;
#82 = LINE ( 'NONE', #312, #218 ) ;
#83 = APPROVAL_PERSON_ORGANIZATION ( #91, #23, #321 ) ;
#84 = DIRECTION ( 'NONE',  ( -1.000000000000000000, -0.000000000000000000, -0.000000000000000000 ) ) ;
#85 = PLANE ( 'NONE',  #146 ) ;
#86 = CARTESIAN_POINT ( 'NONE',  ( -2.999999999999999556, 7.776507174585692163E-16, -6.349999999999999645 ) ) ;
#87 = PRODUCT_DEFINITION ( 'UNKNOWN', '', #170, #332 ) ;
#88 = CARTESIAN_POINT ( 'NONE',  ( 3.000000000000000000, 0.000000000000000000, 0.000000000000000000 ) ) ;
#89 = PRODUCT ( 'Q-OZHWP-R2-12.7-532-M', 'Q-OZHWP-R2-12.7-532-M', '', ( #242 ) ) ;
#90 = CYLINDRICAL_SURFACE ( 'NONE', #175, 6.349999999999999645 ) ;
#91 = PERSON_AND_ORGANIZATION ( #200, #308 ) ;
#92 = DIRECTION ( 'NONE',  ( -1.000000000000000000, -0.000000000000000000, -0.000000000000000000 ) ) ;
#93 = ADVANCED_FACE ( 'NONE', ( #129 ), #208, .F. ) ;
#94 = DIRECTION ( 'NONE',  ( 1.000000000000000000, 0.000000000000000000, 0.000000000000000000 ) ) ;
#95 = AXIS2_PLACEMENT_3D ( 'NONE', #29, #153, #130 ) ;
#96 = VERTEX_POINT ( 'NONE', #124 ) ;
#97 = ORIENTED_EDGE ( 'NONE', *, *, #193, .F. ) ;
#98 = ORIENTED_EDGE ( 'NONE', *, *, #116, .T. ) ;
#99 = EDGE_LOOP ( 'NONE', ( #17, #331, #119, #97 ) ) ;
#100 = ORIENTED_EDGE ( 'NONE', *, *, #226, .T. ) ;
#101 = FACE_OUTER_BOUND ( 'NONE', #222, .T. ) ;
#102 = ADVANCED_FACE ( 'NONE', ( #233, #80 ), #85, .F. ) ;
#103 = CIRCLE ( 'NONE', #95, 12.69999999999999929 ) ;
#104 = CARTESIAN_POINT ( 'NONE',  ( 3.000000000000000888, 7.776507174585692163E-16, -6.349999999999999645 ) ) ;
#105 = CARTESIAN_POINT ( 'NONE',  ( -2.999999999999999556, 0.000000000000000000, 0.000000000000000000 ) ) ;
#106 = DIRECTION ( 'NONE',  ( 0.000000000000000000, 0.000000000000000000, 1.000000000000000000 ) ) ;
#107 = DIRECTION ( 'NONE',  ( -1.000000000000000000, -0.000000000000000000, -0.000000000000000000 ) ) ;
#108 = ORIENTED_EDGE ( 'NONE', *, *, #48, .F. ) ;
#109 = DIRECTION ( 'NONE',  ( 0.000000000000000000, 0.000000000000000000, 1.000000000000000000 ) ) ;
#110 = PERSON_AND_ORGANIZATION ( #200, #308 ) ;
#111 = EDGE_CURVE ( 'NONE', #148, #123, #232, .T. ) ;
#112 = VECTOR ( 'NONE', #285, 1000.000000000000000 ) ;
#113 = CARTESIAN_POINT ( 'NONE',  ( -1.614212418857619014, 7.776507174585692163E-16, -6.349999999999999645 ) ) ;
#114 = APPROVAL_DATE_TIME ( #13, #14 ) ;
#115 = DIRECTION ( 'NONE',  ( 0.000000000000000000, 0.000000000000000000, 1.000000000000000000 ) ) ;
#116 = EDGE_CURVE ( 'NONE', #301, #121, #178, .T. ) ;
#117 = EDGE_LOOP ( 'NONE', ( #241, #329 ) ) ;
#118 = EDGE_LOOP ( 'NONE', ( #253, #108 ) ) ;
#119 = ORIENTED_EDGE ( 'NONE', *, *, #59, .T. ) ;
#120 = SECURITY_CLASSIFICATION ( '', '', #247 ) ;
#121 = VERTEX_POINT ( 'NONE', #236 ) ;
#122 = ADVANCED_FACE ( 'NONE', ( #101 ), #56, .F. ) ;
#123 = VERTEX_POINT ( 'NONE', #287 ) ;
#124 = CARTESIAN_POINT ( 'NONE',  ( -1.500000000000000444, 7.776507174585692163E-16, -6.349999999999999645 ) ) ;
#125 = VECTOR ( 'NONE', #92, 1000.000000000000000 ) ;
#126 = VECTOR ( 'NONE', #291, 1000.000000000000000 ) ;
#127 = DIRECTION ( 'NONE',  ( 0.000000000000000000, 0.000000000000000000, 1.000000000000000000 ) ) ;
#128 = CC_DESIGN_PERSON_AND_ORGANIZATION_ASSIGNMENT ( #267, #250, ( #87 ) ) ;
#129 = FACE_OUTER_BOUND ( 'NONE', #99, .T. ) ;
#130 = DIRECTION ( 'NONE',  ( 0.000000000000000000, 0.000000000000000000, 1.000000000000000000 ) ) ;
#131 = CARTESIAN_POINT ( 'NONE',  ( 1.500000000000000444, 6.349999999999999645, 0.000000000000000000 ) ) ;
#132 = MANIFOLD_SOLID_BREP ( 'Ðý×', #314 ) ;
#133 = CARTESIAN_POINT ( 'NONE',  ( -1.614212418857619014, 0.000000000000000000, 6.349999999999999645 ) ) ;
#134 = DIRECTION ( 'NONE',  ( 1.000000000000000000, 0.000000000000000000, 0.000000000000000000 ) ) ;
#135 = DATE_TIME_ROLE ( 'classification_date' ) ;
#136 = DIRECTION ( 'NONE',  ( -1.000000000000000000, -0.000000000000000000, -0.000000000000000000 ) ) ;
#137 = VECTOR ( 'NONE', #296, 1000.000000000000000 ) ;
#138 = APPROVAL_DATE_TIME ( #42, #172 ) ;
#139 = DIRECTION ( 'NONE',  ( -0.000000000000000000, 0.000000000000000000, 1.000000000000000000 ) ) ;
#140 = PERSON_AND_ORGANIZATION_ROLE ( 'creator' ) ;
#141 = FACE_OUTER_BOUND ( 'NONE', #223, .T. ) ;
#142 = PERSON_AND_ORGANIZATION ( #200, #308 ) ;
#143 = APPLICATION_CONTEXT ( 'configuration controlled 3d designs of mechanical parts and assemblies' ) ;
#144 = APPROVAL_ROLE ( '' ) ;
#145 = VERTEX_POINT ( 'NONE', #151 ) ;
#146 = AXIS2_PLACEMENT_3D ( 'NONE', #154, #176, #235 ) ;
#147 = ORIENTED_EDGE ( 'NONE', *, *, #111, .T. ) ;
#148 = VERTEX_POINT ( 'NONE', #104 ) ;
#149 = ORIENTED_EDGE ( 'NONE', *, *, #166, .T. ) ;
#150 = DIRECTION ( 'NONE',  ( -1.000000000000000000, -0.000000000000000000, -0.000000000000000000 ) ) ;
#151 = CARTESIAN_POINT ( 'NONE',  ( -3.000000000000000000, 0.000000000000000000, 12.69999999999999929 ) ) ;
#152 = AXIS2_PLACEMENT_3D ( 'NONE', #15, #269, #139 ) ;
#153 = DIRECTION ( 'NONE',  ( -1.000000000000000000, -0.000000000000000000, -0.000000000000000000 ) ) ;
#154 = CARTESIAN_POINT ( 'NONE',  ( -3.000000000000000000, 6.349999999999999645, 0.000000000000000000 ) ) ;
#155 = DIRECTION ( 'NONE',  ( 0.000000000000000000, 0.000000000000000000, 1.000000000000000000 ) ) ;
#156 = LINE ( 'NONE', #133, #137 ) ;
#157 = CARTESIAN_POINT ( 'NONE',  ( -1.500000000000000444, 6.349999999999999645, 0.000000000000000000 ) ) ;
#158 = CIRCLE ( 'NONE', #206, 6.349999999999999645 ) ;
#159 = FACE_BOUND ( 'NONE', #249, .T. ) ;
#160 = PRODUCT_RELATED_PRODUCT_CATEGORY ( 'detail', '', ( #89 ) ) ;
#161 = CARTESIAN_POINT ( 'NONE',  ( -1.614212418857619014, 0.000000000000000000, 0.000000000000000000 ) ) ;
#162 = EDGE_CURVE ( 'NONE', #73, #145, #82, .T. ) ;
#163 = PERSON_AND_ORGANIZATION_ROLE ( 'classification_officer' ) ;
#164 = FACE_OUTER_BOUND ( 'NONE', #254, .T. ) ;
#165 = APPROVAL_STATUS ( 'not_yet_approved' ) ;
#166 = EDGE_CURVE ( 'NONE', #49, #333, #248, .T. ) ;
#167 = ORIENTED_EDGE ( 'NONE', *, *, #266, .T. ) ;
#168 = PERSON_AND_ORGANIZATION ( #200, #308 ) ;
#169 = VERTEX_POINT ( 'NONE', #24 ) ;
#170 = PRODUCT_DEFINITION_FORMATION_WITH_SPECIFIED_SOURCE ( 'ANY', '', #89, .NOT_KNOWN. ) ;
#171 = ORIENTED_EDGE ( 'NONE', *, *, #226, .F. ) ;
#172 = APPROVAL ( #270, 'UNSPECIFIED' ) ;
#173 = ORIENTED_EDGE ( 'NONE', *, *, #266, .F. ) ;
#174 = ORIENTED_EDGE ( 'NONE', *, *, #48, .T. ) ;
#175 = AXIS2_PLACEMENT_3D ( 'NONE', #315, #187, #115 ) ;
#176 = DIRECTION ( 'NONE',  ( 1.000000000000000000, 0.000000000000000000, 0.000000000000000000 ) ) ;
#177 = CC_DESIGN_PERSON_AND_ORGANIZATION_ASSIGNMENT ( #110, #163, ( #120 ) ) ;
#178 = LINE ( 'NONE', #257, #28 ) ;
#179 = CARTESIAN_POINT ( 'NONE',  ( 3.000000000000000888, 0.000000000000000000, 0.000000000000000000 ) ) ;
#180 = CIRCLE ( 'NONE', #275, 6.349999999999999645 ) ;
#181 = DIRECTION ( 'NONE',  ( -1.000000000000000000, -0.000000000000000000, -0.000000000000000000 ) ) ;
#182 = CARTESIAN_POINT ( 'NONE',  ( 1.500000000000000888, 0.000000000000000000, 6.349999999999999645 ) ) ;
#183 = CARTESIAN_POINT ( 'NONE',  ( -2.999999999999999556, 0.000000000000000000, 0.000000000000000000 ) ) ;
#184 = AXIS2_PLACEMENT_3D ( 'NONE', #243, #68, #36 ) ;
#185 = FACE_OUTER_BOUND ( 'NONE', #117, .T. ) ;
#186 = ADVANCED_FACE ( 'NONE', ( #313 ), #282, .T. ) ;
#187 = DIRECTION ( 'NONE',  ( -1.000000000000000000, -0.000000000000000000, -0.000000000000000000 ) ) ;
#188 = COORDINATED_UNIVERSAL_TIME_OFFSET ( 8, 0, .AHEAD. ) ;
#189 = CARTESIAN_POINT ( 'NONE',  ( -1.614212418857619014, 0.000000000000000000, 6.349999999999999645 ) ) ;
#190 = UNCERTAINTY_MEASURE_WITH_UNIT (LENGTH_MEASURE( 1.000000000000000082E-05 ), #7, 'distance_accuracy_value', 'NONE');
#191 = CARTESIAN_POINT ( 'NONE',  ( -3.000000000000000000, 0.000000000000000000, 0.000000000000000000 ) ) ;
#192 = AXIS2_PLACEMENT_3D ( 'NONE', #244, #272, #94 ) ;
#193 = EDGE_CURVE ( 'NONE', #123, #49, #26, .T. ) ;
#194 = PERSON_AND_ORGANIZATION ( #200, #308 ) ;
#195 = COORDINATED_UNIVERSAL_TIME_OFFSET ( 8, 0, .AHEAD. ) ;
#196 = ORIENTED_EDGE ( 'NONE', *, *, #284, .T. ) ;
#197 = EDGE_LOOP ( 'NONE', ( #47, #303, #51, #171 ) ) ;
#198 = CIRCLE ( 'NONE', #184, 12.69999999999999929 ) ;
#199 = ORIENTED_EDGE ( 'NONE', *, *, #19, .T. ) ;
#200 = PERSON ( 'UNSPECIFIED', 'UNSPECIFIED', 'UNSPECIFIED', ('UNSPECIFIED'), ('UNSPECIFIED'), ('UNSPECIFIED') ) ;
#201 = FACE_OUTER_BOUND ( 'NONE', #213, .T. ) ;
#202 = ORIENTED_EDGE ( 'NONE', *, *, #19, .F. ) ;
#203 = ADVANCED_BREP_SHAPE_REPRESENTATION ( 'Q-OZHWP-R2-12.7-532-M', ( #132, #192 ), #334 ) ;
#204 = CARTESIAN_POINT ( 'NONE',  ( -1.614212418857619014, 0.000000000000000000, 0.000000000000000000 ) ) ;
#205 = CARTESIAN_POINT ( 'NONE',  ( -1.614212418857619014, 7.776507174585692163E-16, -6.349999999999999645 ) ) ;
#206 = AXIS2_PLACEMENT_3D ( 'NONE', #60, #231, #155 ) ;
#207 = DIRECTION ( 'NONE',  ( -1.000000000000000000, -0.000000000000000000, -0.000000000000000000 ) ) ;
#208 = CYLINDRICAL_SURFACE ( 'NONE', #50, 6.349999999999999645 ) ;
#209 = DIRECTION ( 'NONE',  ( -1.000000000000000000, -0.000000000000000000, -0.000000000000000000 ) ) ;
#210 = DATE_AND_TIME ( #325, #255 ) ;
#211 = AXIS2_PLACEMENT_3D ( 'NONE', #191, #271, #66 ) ;
#212 = CARTESIAN_POINT ( 'NONE',  ( 1.500000000000000888, 7.776507174585692163E-16, -6.349999999999999645 ) ) ;
#213 = EDGE_LOOP ( 'NONE', ( #196, #167, #174, #76 ) ) ;
#214 = CYLINDRICAL_SURFACE ( 'NONE', #323, 12.69999999999999929 ) ;
#215 = EDGE_LOOP ( 'NONE', ( #173, #277, #21, #304 ) ) ;
#216 = COORDINATED_UNIVERSAL_TIME_OFFSET ( 8, 0, .AHEAD. ) ;
#217 = APPROVAL_ROLE ( '' ) ;
#218 = VECTOR ( 'NONE', #209, 1000.000000000000000 ) ;
#219 = CC_DESIGN_DATE_AND_TIME_ASSIGNMENT ( #16, #135, ( #120 ) ) ;
#220 = AXIS2_PLACEMENT_3D ( 'NONE', #39, #264, #10 ) ;
#221 = APPLICATION_PROTOCOL_DEFINITION ( 'international standard', 'config_control_design', 1994, #61 ) ;
#222 = EDGE_LOOP ( 'NONE', ( #327, #280 ) ) ;
#223 = EDGE_LOOP ( 'NONE', ( #20, #227 ) ) ;
#224 = CC_DESIGN_PERSON_AND_ORGANIZATION_ASSIGNMENT ( #194, #44, ( #89 ) ) ;
#225 = CC_DESIGN_APPROVAL ( #23, ( #87 ) ) ;
#226 = EDGE_CURVE ( 'NONE', #121, #145, #25, .T. ) ;
#227 = ORIENTED_EDGE ( 'NONE', *, *, #330, .F. ) ;
#228 = DIRECTION ( 'NONE',  ( 0.000000000000000000, 0.000000000000000000, 1.000000000000000000 ) ) ;
#229 = CARTESIAN_POINT ( 'NONE',  ( 3.000000000000000000, 0.000000000000000000, 12.69999999999999929 ) ) ;
#230 = CC_DESIGN_APPROVAL ( #14, ( #120 ) ) ;
#231 = DIRECTION ( 'NONE',  ( -1.000000000000000000, -0.000000000000000000, -0.000000000000000000 ) ) ;
#232 = CIRCLE ( 'NONE', #278, 6.349999999999999645 ) ;
#233 = FACE_BOUND ( 'NONE', #118, .T. ) ;
#234 = EDGE_CURVE ( 'NONE', #73, #301, #259, .T. ) ;
#235 = DIRECTION ( 'NONE',  ( 0.000000000000000000, 0.000000000000000000, -1.000000000000000000 ) ) ;
#236 = CARTESIAN_POINT ( 'NONE',  ( -3.000000000000000000, 1.555301434917138433E-15, -12.69999999999999929 ) ) ;
#237 = ADVANCED_FACE ( 'NONE', ( #164 ), #90, .F. ) ;
#238 = CIRCLE ( 'NONE', #65, 6.349999999999999645 ) ;
#239 = CARTESIAN_POINT ( 'NONE',  ( -1.500000000000000444, 0.000000000000000000, 6.349999999999999645 ) ) ;
#240 = DIRECTION ( 'NONE',  ( 0.000000000000000000, 0.000000000000000000, 1.000000000000000000 ) ) ;
#241 = ORIENTED_EDGE ( 'NONE', *, *, #284, .F. ) ;
#242 = MECHANICAL_CONTEXT ( 'NONE', #143, 'mechanical' ) ;
#243 = CARTESIAN_POINT ( 'NONE',  ( 3.000000000000000000, 0.000000000000000000, 0.000000000000000000 ) ) ;
#244 = CARTESIAN_POINT ( 'NONE',  ( 0.000000000000000000, 0.000000000000000000, 0.000000000000000000 ) ) ;
#245 = EDGE_CURVE ( 'NONE', #96, #320, #328, .T. ) ;
#246 = PLANE ( 'NONE',  #263 ) ;
#247 = SECURITY_CLASSIFICATION_LEVEL ( 'unclassified' ) ;
#248 = CIRCLE ( 'NONE', #45, 6.349999999999999645 ) ;
#249 = EDGE_LOOP ( 'NONE', ( #199, #147 ) ) ;
#250 = PERSON_AND_ORGANIZATION_ROLE ( 'creator' ) ;
#251 = ORIENTED_EDGE ( 'NONE', *, *, #81, .T. ) ;
#252 = AXIS2_PLACEMENT_3D ( 'NONE', #31, #58, #310 ) ;
#253 = ORIENTED_EDGE ( 'NONE', *, *, #288, .F. ) ;
#254 = EDGE_LOOP ( 'NONE', ( #318, #202, #279, #149 ) ) ;
#255 = LOCAL_TIME ( 17, 14, 23.00000000000000000, #274 ) ;
#256 = VERTEX_POINT ( 'NONE', #86 ) ;
#257 = CARTESIAN_POINT ( 'NONE',  ( -1.614212418857619014, 1.555301434917138433E-15, -12.69999999999999929 ) ) ;
#258 = CARTESIAN_POINT ( 'NONE',  ( 1.500000000000000888, 0.000000000000000000, 0.000000000000000000 ) ) ;
#259 = CIRCLE ( 'NONE', #57, 12.69999999999999929 ) ;
#260 = FACE_OUTER_BOUND ( 'NONE', #215, .T. ) ;
#261 = DIRECTION ( 'NONE',  ( -1.000000000000000000, -0.000000000000000000, -0.000000000000000000 ) ) ;
#262 = CARTESIAN_POINT ( 'NONE',  ( -1.614212418857619014, 0.000000000000000000, 0.000000000000000000 ) ) ;
#263 = AXIS2_PLACEMENT_3D ( 'NONE', #157, #41, #37 ) ;
#264 = DIRECTION ( 'NONE',  ( 1.000000000000000000, 0.000000000000000000, 0.000000000000000000 ) ) ;
#265 = CARTESIAN_POINT ( 'NONE',  ( -1.500000000000000444, 0.000000000000000000, 0.000000000000000000 ) ) ;
#266 = EDGE_CURVE ( 'NONE', #96, #256, #298, .T. ) ;
#267 = PERSON_AND_ORGANIZATION ( #200, #308 ) ;
#268 = LOCAL_TIME ( 17, 14, 23.00000000000000000, #299 ) ;
#269 = DIRECTION ( 'NONE',  ( -1.000000000000000000, 0.000000000000000000, -0.000000000000000000 ) ) ;
#270 = APPROVAL_STATUS ( 'not_yet_approved' ) ;
#271 = DIRECTION ( 'NONE',  ( -1.000000000000000000, -0.000000000000000000, -0.000000000000000000 ) ) ;
#272 = DIRECTION ( 'NONE',  ( 0.000000000000000000, 0.000000000000000000, 1.000000000000000000 ) ) ;
#273 = ORIENTED_EDGE ( 'NONE', *, *, #234, .T. ) ;
#274 = COORDINATED_UNIVERSAL_TIME_OFFSET ( 8, 0, .AHEAD. ) ;
#275 = AXIS2_PLACEMENT_3D ( 'NONE', #183, #293, #35 ) ;
#276 = ORIENTED_EDGE ( 'NONE', *, *, #81, .F. ) ;
#277 = ORIENTED_EDGE ( 'NONE', *, *, #245, .T. ) ;
#278 = AXIS2_PLACEMENT_3D ( 'NONE', #179, #311, #3 ) ;
#279 = ORIENTED_EDGE ( 'NONE', *, *, #193, .T. ) ;
#280 = ORIENTED_EDGE ( 'NONE', *, *, #59, .F. ) ;
#281 = CC_DESIGN_PERSON_AND_ORGANIZATION_ASSIGNMENT ( #168, #67, ( #170 ) ) ;
#282 = CYLINDRICAL_SURFACE ( 'NONE', #302, 12.69999999999999929 ) ;
#283 = CYLINDRICAL_SURFACE ( 'NONE', #55, 6.349999999999999645 ) ;
#284 = EDGE_CURVE ( 'NONE', #320, #96, #78, .T. ) ;
#285 = DIRECTION ( 'NONE',  ( -1.000000000000000000, -0.000000000000000000, -0.000000000000000000 ) ) ;
#286 = AXIS2_PLACEMENT_3D ( 'NONE', #265, #134, #319 ) ;
#287 = CARTESIAN_POINT ( 'NONE',  ( 3.000000000000000888, 0.000000000000000000, 6.349999999999999645 ) ) ;
#288 = EDGE_CURVE ( 'NONE', #169, #256, #180, .T. ) ;
#289 = DIRECTION ( 'NONE',  ( -1.000000000000000000, -0.000000000000000000, -0.000000000000000000 ) ) ;
#290 = ADVANCED_FACE ( 'NONE', ( #141, #159 ), #317, .F. ) ;
#291 = DIRECTION ( 'NONE',  ( -1.000000000000000000, -0.000000000000000000, -0.000000000000000000 ) ) ;
#292 = LOCAL_TIME ( 17, 14, 23.00000000000000000, #188 ) ;
#293 = DIRECTION ( 'NONE',  ( -1.000000000000000000, -0.000000000000000000, -0.000000000000000000 ) ) ;
#294 = ADVANCED_FACE ( 'NONE', ( #185 ), #246, .F. ) ;
#295 = CALENDAR_DATE ( 2020, 22, 12 ) ;
#296 = DIRECTION ( 'NONE',  ( -1.000000000000000000, -0.000000000000000000, -0.000000000000000000 ) ) ;
#297 = DATE_TIME_ROLE ( 'creation_date' ) ;
#298 = LINE ( 'NONE', #113, #126 ) ;
#299 = COORDINATED_UNIVERSAL_TIME_OFFSET ( 8, 0, .AHEAD. ) ;
#300 = CALENDAR_DATE ( 2020, 22, 12 ) ;
#301 = VERTEX_POINT ( 'NONE', #70 ) ;
#302 = AXIS2_PLACEMENT_3D ( 'NONE', #335, #84, #54 ) ;
#303 = ORIENTED_EDGE ( 'NONE', *, *, #330, .T. ) ;
#304 = ORIENTED_EDGE ( 'NONE', *, *, #288, .T. ) ;
#305 = ADVANCED_FACE ( 'NONE', ( #62 ), #214, .T. ) ;
#306 = CYLINDRICAL_SURFACE ( 'NONE', #326, 6.349999999999999645 ) ;
#307 = ORIENTED_EDGE ( 'NONE', *, *, #162, .F. ) ;
#308 = ORGANIZATION ( 'UNSPECIFIED', 'UNSPECIFIED', '' ) ;
#309 = EDGE_CURVE ( 'NONE', #320, #169, #156, .T. ) ;
#310 = DIRECTION ( 'NONE',  ( 0.000000000000000000, 0.000000000000000000, 1.000000000000000000 ) ) ;
#311 = DIRECTION ( 'NONE',  ( -1.000000000000000000, -0.000000000000000000, -0.000000000000000000 ) ) ;
#312 = CARTESIAN_POINT ( 'NONE',  ( -1.614212418857619014, 0.000000000000000000, 12.69999999999999929 ) ) ;
#313 = FACE_OUTER_BOUND ( 'NONE', #197, .T. ) ;
#314 = CLOSED_SHELL ( 'NONE', ( #305, #8, #93, #122, #237, #30, #102, #186, #290, #294 ) ) ;
#315 = CARTESIAN_POINT ( 'NONE',  ( -1.614212418857619014, 0.000000000000000000, 0.000000000000000000 ) ) ;
#316 =( NAMED_UNIT ( * ) SI_UNIT ( $, .STERADIAN. ) SOLID_ANGLE_UNIT ( ) );
#317 = PLANE ( 'NONE',  #152 ) ;
#318 = ORIENTED_EDGE ( 'NONE', *, *, #34, .F. ) ;
#319 = DIRECTION ( 'NONE',  ( 0.000000000000000000, 0.000000000000000000, -1.000000000000000000 ) ) ;
#320 = VERTEX_POINT ( 'NONE', #239 ) ;
#321 = APPROVAL_ROLE ( '' ) ;
#322 = SHAPE_DEFINITION_REPRESENTATION ( #43, #203 ) ;
#323 = AXIS2_PLACEMENT_3D ( 'NONE', #161, #136, #240 ) ;
#324 = APPLICATION_PROTOCOL_DEFINITION ( 'international standard', 'config_control_design', 1994, #143 ) ;
#325 = CALENDAR_DATE ( 2020, 22, 12 ) ;
#326 = AXIS2_PLACEMENT_3D ( 'NONE', #77, #22, #228 ) ;
#327 = ORIENTED_EDGE ( 'NONE', *, *, #166, .F. ) ;
#328 = CIRCLE ( 'NONE', #220, 6.349999999999999645 ) ;
#329 = ORIENTED_EDGE ( 'NONE', *, *, #245, .F. ) ;
#330 = EDGE_CURVE ( 'NONE', #301, #73, #198, .T. ) ;
#331 = ORIENTED_EDGE ( 'NONE', *, *, #34, .T. ) ;
#332 = DESIGN_CONTEXT ( 'detailed design', #61, 'design' ) ;
#333 = VERTEX_POINT ( 'NONE', #212 ) ;
#334 =( GEOMETRIC_REPRESENTATION_CONTEXT ( 3 ) GLOBAL_UNCERTAINTY_ASSIGNED_CONTEXT ( ( #190 ) ) GLOBAL_UNIT_ASSIGNED_CONTEXT ( ( #7, #12, #316 ) ) REPRESENTATION_CONTEXT ( 'NONE', 'WORKASPACE' ) );
#335 = CARTESIAN_POINT ( 'NONE',  ( -1.614212418857619014, 0.000000000000000000, 0.000000000000000000 ) ) ;
ENDSEC;
END-ISO-10303-21;
